ISO-10303-21;
HEADER;
FILE_DESCRIPTION (( 'STEP AP203' ),
    '1' );
FILE_NAME ('QB-CTZHWP-10-795-M.STEP',
    '2020-12-24T01:34:19',
    ( '' ),
    ( '' ),
    'SwSTEP 2.0',
    'SolidWorks 2020',
    '' );
FILE_SCHEMA (( 'CONFIG_CONTROL_DESIGN' ));
ENDSEC;

DATA;
#1 = VERTEX_POINT ( 'NONE', #123 ) ;
#2 = DIRECTION ( 'NONE',  ( -1.000000000000000000, -0.000000000000000000, -0.000000000000000000 ) ) ;
#3 = VERTEX_POINT ( 'NONE', #98 ) ;
#4 = AXIS2_PLACEMENT_3D ( 'NONE', #86, #196, #273 ) ;
#5 = AXIS2_PLACEMENT_3D ( 'NONE', #75, #235, #237 ) ;
#6 = UNCERTAINTY_MEASURE_WITH_UNIT (LENGTH_MEASURE( 1.000000000000000082E-05 ), #327, 'distance_accuracy_value', 'NONE');
#7 = FACE_OUTER_BOUND ( 'NONE', #181, .T. ) ;
#8 = ORIENTED_EDGE ( 'NONE', *, *, #267, .T. ) ;
#9 = AXIS2_PLACEMENT_3D ( 'NONE', #83, #242, #35 ) ;
#10 = CARTESIAN_POINT ( 'NONE',  ( -1.614212418857619014, 6.123233995736767268E-16, -5.000000000000000888 ) ) ;
#11 = CC_DESIGN_DATE_AND_TIME_ASSIGNMENT ( #323, #164, ( #104 ) ) ;
#12 =( GEOMETRIC_REPRESENTATION_CONTEXT ( 3 ) GLOBAL_UNCERTAINTY_ASSIGNED_CONTEXT ( ( #6 ) ) GLOBAL_UNIT_ASSIGNED_CONTEXT ( ( #327, #16, #146 ) ) REPRESENTATION_CONTEXT ( 'NONE', 'WORKASPACE' ) );
#13 = DIRECTION ( 'NONE',  ( 1.000000000000000000, 0.000000000000000000, 0.000000000000000000 ) ) ;
#14 = DIRECTION ( 'NONE',  ( -1.000000000000000000, -0.000000000000000000, -0.000000000000000000 ) ) ;
#15 = DIRECTION ( 'NONE',  ( 0.000000000000000000, 0.000000000000000000, 1.000000000000000000 ) ) ;
#16 =( NAMED_UNIT ( * ) PLANE_ANGLE_UNIT ( ) SI_UNIT ( $, .RADIAN. ) );
#17 = CC_DESIGN_APPROVAL ( #162, ( #104 ) ) ;
#18 = AXIS2_PLACEMENT_3D ( 'NONE', #139, #116, #297 ) ;
#19 = PRODUCT_DEFINITION_FORMATION_WITH_SPECIFIED_SOURCE ( 'ANY', '', #20, .NOT_KNOWN. ) ;
#20 = PRODUCT ( 'QB-CTZHWP-10-795-M', 'QB-CTZHWP-10-795-M', '', ( #119 ) ) ;
#21 = ORIENTED_EDGE ( 'NONE', *, *, #74, .T. ) ;
#22 = LINE ( 'NONE', #24, #125 ) ;
#23 = ORIENTED_EDGE ( 'NONE', *, *, #126, .T. ) ;
#24 = CARTESIAN_POINT ( 'NONE',  ( -1.614212418857619014, 1.555301434917138433E-15, -12.69999999999999929 ) ) ;
#25 = CLOSED_SHELL ( 'NONE', ( #257, #217, #296, #64, #93, #107, #87, #188, #193, #143 ) ) ;
#26 = CARTESIAN_POINT ( 'NONE',  ( -1.614212418857619014, 0.000000000000000000, 0.000000000000000000 ) ) ;
#27 = ORIENTED_EDGE ( 'NONE', *, *, #126, .F. ) ;
#28 = CARTESIAN_POINT ( 'NONE',  ( -1.614212418857619014, 0.000000000000000000, 5.000000000000000888 ) ) ;
#29 = VERTEX_POINT ( 'NONE', #309 ) ;
#30 = APPROVAL_PERSON_ORGANIZATION ( #202, #316, #197 ) ;
#31 = VERTEX_POINT ( 'NONE', #72 ) ;
#32 = AXIS2_PLACEMENT_3D ( 'NONE', #310, #73, #178 ) ;
#33 = EDGE_CURVE ( 'NONE', #203, #67, #291, .T. ) ;
#34 = DIRECTION ( 'NONE',  ( 0.000000000000000000, 0.000000000000000000, 1.000000000000000000 ) ) ;
#35 = DIRECTION ( 'NONE',  ( -0.000000000000000000, 0.000000000000000000, 1.000000000000000000 ) ) ;
#36 = DESIGN_CONTEXT ( 'detailed design', #234, 'design' ) ;
#37 = AXIS2_PLACEMENT_3D ( 'NONE', #190, #85, #34 ) ;
#38 = VECTOR ( 'NONE', #214, 1000.000000000000000 ) ;
#39 = PERSON_AND_ORGANIZATION_ROLE ( 'classification_officer' ) ;
#40 = DIRECTION ( 'NONE',  ( -1.000000000000000000, -0.000000000000000000, -0.000000000000000000 ) ) ;
#41 = CARTESIAN_POINT ( 'NONE',  ( -1.614212418857619014, 0.000000000000000000, 0.000000000000000000 ) ) ;
#42 = APPROVAL_DATE_TIME ( #295, #162 ) ;
#43 = COORDINATED_UNIVERSAL_TIME_OFFSET ( 8, 0, .AHEAD. ) ;
#44 = ORIENTED_EDGE ( 'NONE', *, *, #301, .F. ) ;
#45 = CIRCLE ( 'NONE', #58, 5.000000000000000888 ) ;
#46 = DATE_TIME_ROLE ( 'creation_date' ) ;
#47 = ORIENTED_EDGE ( 'NONE', *, *, #198, .T. ) ;
#48 = DIRECTION ( 'NONE',  ( -1.000000000000000000, -0.000000000000000000, -0.000000000000000000 ) ) ;
#49 = CARTESIAN_POINT ( 'NONE',  ( -3.000000000000000000, 0.000000000000000000, 0.000000000000000000 ) ) ;
#50 = DIRECTION ( 'NONE',  ( 0.000000000000000000, 0.000000000000000000, 1.000000000000000000 ) ) ;
#51 = VERTEX_POINT ( 'NONE', #243 ) ;
#52 = APPLICATION_CONTEXT ( 'configuration controlled 3d designs of mechanical parts and assemblies' ) ;
#53 = DIRECTION ( 'NONE',  ( -1.000000000000000000, -0.000000000000000000, -0.000000000000000000 ) ) ;
#54 = ORIENTED_EDGE ( 'NONE', *, *, #168, .T. ) ;
#55 = CC_DESIGN_APPROVAL ( #131, ( #19 ) ) ;
#56 = ORIENTED_EDGE ( 'NONE', *, *, #168, .F. ) ;
#57 = CC_DESIGN_PERSON_AND_ORGANIZATION_ASSIGNMENT ( #171, #97, ( #19 ) ) ;
#58 = AXIS2_PLACEMENT_3D ( 'NONE', #90, #231, #300 ) ;
#59 = CARTESIAN_POINT ( 'NONE',  ( -3.000000000000000000, 0.000000000000000000, 12.69999999999999929 ) ) ;
#60 = PLANE ( 'NONE',  #9 ) ;
#61 = FACE_OUTER_BOUND ( 'NONE', #153, .T. ) ;
#62 = AXIS2_PLACEMENT_3D ( 'NONE', #137, #221, #96 ) ;
#63 = CARTESIAN_POINT ( 'NONE',  ( 3.000000000000000000, 0.000000000000000000, 0.000000000000000000 ) ) ;
#64 = ADVANCED_FACE ( 'NONE', ( #270 ), #60, .F. ) ;
#65 = CARTESIAN_POINT ( 'NONE',  ( -1.250000000000000222, 6.123233995736767268E-16, -5.000000000000000888 ) ) ;
#66 = DATE_AND_TIME ( #304, #111 ) ;
#67 = VERTEX_POINT ( 'NONE', #293 ) ;
#68 = EDGE_CURVE ( 'NONE', #285, #1, #320, .T. ) ;
#69 = PERSON_AND_ORGANIZATION ( #241, #173 ) ;
#70 = ORIENTED_EDGE ( 'NONE', *, *, #133, .T. ) ;
#71 = LINE ( 'NONE', #122, #84 ) ;
#72 = CARTESIAN_POINT ( 'NONE',  ( 3.000000000000000000, 0.000000000000000000, 5.000000000000001776 ) ) ;
#73 = DIRECTION ( 'NONE',  ( -1.000000000000000000, -0.000000000000000000, -0.000000000000000000 ) ) ;
#74 = EDGE_CURVE ( 'NONE', #255, #1, #265, .T. ) ;
#75 = CARTESIAN_POINT ( 'NONE',  ( -3.000000000000000000, 0.000000000000000000, 0.000000000000000000 ) ) ;
#76 = VERTEX_POINT ( 'NONE', #59 ) ;
#77 = DIRECTION ( 'NONE',  ( 0.000000000000000000, 0.000000000000000000, 1.000000000000000000 ) ) ;
#78 = ORIENTED_EDGE ( 'NONE', *, *, #101, .T. ) ;
#79 = PRODUCT_DEFINITION ( 'UNKNOWN', '', #19, #36 ) ;
#80 = AXIS2_PLACEMENT_3D ( 'NONE', #112, #163, #135 ) ;
#81 = ORIENTED_EDGE ( 'NONE', *, *, #326, .F. ) ;
#82 = ORIENTED_EDGE ( 'NONE', *, *, #133, .F. ) ;
#83 = CARTESIAN_POINT ( 'NONE',  ( 1.250000000000000222, 5.000000000000000000, 0.000000000000000000 ) ) ;
#84 = VECTOR ( 'NONE', #230, 1000.000000000000000 ) ;
#85 = DIRECTION ( 'NONE',  ( -1.000000000000000000, -0.000000000000000000, -0.000000000000000000 ) ) ;
#86 = CARTESIAN_POINT ( 'NONE',  ( 3.000000000000000000, 12.69999999999999929, 0.000000000000000000 ) ) ;
#87 = ADVANCED_FACE ( 'NONE', ( #194, #216 ), #160, .F. ) ;
#88 = PERSON_AND_ORGANIZATION ( #241, #173 ) ;
#89 = FACE_OUTER_BOUND ( 'NONE', #184, .T. ) ;
#90 = CARTESIAN_POINT ( 'NONE',  ( -1.250000000000000222, 0.000000000000000000, 0.000000000000000000 ) ) ;
#91 = MANIFOLD_SOLID_BREP ( 'Ðý×', #25 ) ;
#92 = PERSON_AND_ORGANIZATION_ROLE ( 'design_supplier' ) ;
#93 = ADVANCED_FACE ( 'NONE', ( #110 ), #271, .F. ) ;
#94 = PERSON_AND_ORGANIZATION ( #241, #173 ) ;
#95 = ORIENTED_EDGE ( 'NONE', *, *, #246, .T. ) ;
#96 = DIRECTION ( 'NONE',  ( 0.000000000000000000, 0.000000000000000000, 1.000000000000000000 ) ) ;
#97 = PERSON_AND_ORGANIZATION_ROLE ( 'creator' ) ;
#98 = CARTESIAN_POINT ( 'NONE',  ( -3.000000000000000000, 0.000000000000000000, 5.000000000000000000 ) ) ;
#99 = VECTOR ( 'NONE', #40, 1000.000000000000000 ) ;
#100 = CARTESIAN_POINT ( 'NONE',  ( -1.250000000000000222, 5.000000000000000000, 0.000000000000000000 ) ) ;
#101 = EDGE_CURVE ( 'NONE', #51, #76, #71, .T. ) ;
#102 = ORIENTED_EDGE ( 'NONE', *, *, #33, .T. ) ;
#103 = CARTESIAN_POINT ( 'NONE',  ( -1.614212418857619014, 6.123233995736767268E-16, -5.000000000000000888 ) ) ;
#104 = SECURITY_CLASSIFICATION ( '', '', #247 ) ;
#105 = ORIENTED_EDGE ( 'NONE', *, *, #182, .T. ) ;
#106 = DIRECTION ( 'NONE',  ( -1.000000000000000000, -0.000000000000000000, -0.000000000000000000 ) ) ;
#107 = ADVANCED_FACE ( 'NONE', ( #253 ), #204, .F. ) ;
#108 = AXIS2_PLACEMENT_3D ( 'NONE', #49, #233, #307 ) ;
#109 = EDGE_LOOP ( 'NONE', ( #312, #264 ) ) ;
#110 = FACE_OUTER_BOUND ( 'NONE', #157, .T. ) ;
#111 = LOCAL_TIME ( 9, 34, 19.00000000000000000, #43 ) ;
#112 = CARTESIAN_POINT ( 'NONE',  ( -3.000000000000000000, 5.000000000000000000, 0.000000000000000000 ) ) ;
#113 = PRODUCT_RELATED_PRODUCT_CATEGORY ( 'detail', '', ( #20 ) ) ;
#114 = PERSON_AND_ORGANIZATION ( #241, #173 ) ;
#115 = DIRECTION ( 'NONE',  ( -1.000000000000000000, -0.000000000000000000, -0.000000000000000000 ) ) ;
#116 = DIRECTION ( 'NONE',  ( -1.000000000000000000, -0.000000000000000000, -0.000000000000000000 ) ) ;
#117 = DATE_AND_TIME ( #332, #206 ) ;
#118 = CIRCLE ( 'NONE', #108, 12.69999999999999929 ) ;
#119 = MECHANICAL_CONTEXT ( 'NONE', #52, 'mechanical' ) ;
#120 = CC_DESIGN_PERSON_AND_ORGANIZATION_ASSIGNMENT ( #69, #329, ( #79 ) ) ;
#121 = ORIENTED_EDGE ( 'NONE', *, *, #138, .F. ) ;
#122 = CARTESIAN_POINT ( 'NONE',  ( -1.614212418857619014, 0.000000000000000000, 12.69999999999999929 ) ) ;
#123 = CARTESIAN_POINT ( 'NONE',  ( 1.250000000000000444, 6.123233995736766282E-16, -5.000000000000000000 ) ) ;
#124 = DIRECTION ( 'NONE',  ( 0.000000000000000000, 0.000000000000000000, 1.000000000000000000 ) ) ;
#125 = VECTOR ( 'NONE', #48, 1000.000000000000000 ) ;
#126 = EDGE_CURVE ( 'NONE', #128, #232, #22, .T. ) ;
#127 = CYLINDRICAL_SURFACE ( 'NONE', #269, 12.69999999999999929 ) ;
#128 = VERTEX_POINT ( 'NONE', #331 ) ;
#129 = CARTESIAN_POINT ( 'NONE',  ( -1.614212418857619014, 0.000000000000000000, 0.000000000000000000 ) ) ;
#130 = CIRCLE ( 'NONE', #18, 12.69999999999999929 ) ;
#131 = APPROVAL ( #170, 'UNSPECIFIED' ) ;
#132 = EDGE_LOOP ( 'NONE', ( #252, #238, #333, #189 ) ) ;
#133 = EDGE_CURVE ( 'NONE', #232, #76, #118, .T. ) ;
#134 = LOCAL_TIME ( 9, 34, 19.00000000000000000, #222 ) ;
#135 = DIRECTION ( 'NONE',  ( 0.000000000000000000, 0.000000000000000000, -1.000000000000000000 ) ) ;
#136 = SHAPE_DEFINITION_REPRESENTATION ( #302, #328 ) ;
#137 = CARTESIAN_POINT ( 'NONE',  ( -1.614212418857619014, 0.000000000000000000, 0.000000000000000000 ) ) ;
#138 = EDGE_CURVE ( 'NONE', #285, #31, #279, .T. ) ;
#139 = CARTESIAN_POINT ( 'NONE',  ( 3.000000000000000000, 0.000000000000000000, 0.000000000000000000 ) ) ;
#140 = CARTESIAN_POINT ( 'NONE',  ( -1.614212418857619014, 0.000000000000000000, 0.000000000000000000 ) ) ;
#141 = PERSON_AND_ORGANIZATION_ROLE ( 'design_owner' ) ;
#142 = CARTESIAN_POINT ( 'NONE',  ( -3.000000000000000000, 1.555301434917138433E-15, -12.69999999999999929 ) ) ;
#143 = ADVANCED_FACE ( 'NONE', ( #256 ), #335, .F. ) ;
#144 = CALENDAR_DATE ( 2020, 24, 12 ) ;
#145 = AXIS2_PLACEMENT_3D ( 'NONE', #129, #53, #154 ) ;
#146 =( NAMED_UNIT ( * ) SI_UNIT ( $, .STERADIAN. ) SOLID_ANGLE_UNIT ( ) );
#147 = ORIENTED_EDGE ( 'NONE', *, *, #239, .F. ) ;
#148 = COORDINATED_UNIVERSAL_TIME_OFFSET ( 8, 0, .AHEAD. ) ;
#149 = ORIENTED_EDGE ( 'NONE', *, *, #33, .F. ) ;
#150 = DIRECTION ( 'NONE',  ( 0.000000000000000000, 0.000000000000000000, 1.000000000000000000 ) ) ;
#151 = CARTESIAN_POINT ( 'NONE',  ( 3.000000000000000000, 0.000000000000000000, 0.000000000000000000 ) ) ;
#152 = CARTESIAN_POINT ( 'NONE',  ( -3.000000000000000000, 0.000000000000000000, 0.000000000000000000 ) ) ;
#153 = EDGE_LOOP ( 'NONE', ( #215, #81 ) ) ;
#154 = DIRECTION ( 'NONE',  ( 0.000000000000000000, 0.000000000000000000, 1.000000000000000000 ) ) ;
#155 = ORIENTED_EDGE ( 'NONE', *, *, #301, .T. ) ;
#156 = AXIS2_PLACEMENT_3D ( 'NONE', #311, #180, #50 ) ;
#157 = EDGE_LOOP ( 'NONE', ( #278, #56, #155, #21 ) ) ;
#158 = EDGE_LOOP ( 'NONE', ( #305, #149 ) ) ;
#159 = AXIS2_PLACEMENT_3D ( 'NONE', #41, #115, #324 ) ;
#160 = PLANE ( 'NONE',  #80 ) ;
#161 = CALENDAR_DATE ( 2020, 24, 12 ) ;
#162 = APPROVAL ( #277, 'UNSPECIFIED' ) ;
#163 = DIRECTION ( 'NONE',  ( 1.000000000000000000, 0.000000000000000000, 0.000000000000000000 ) ) ;
#164 = DATE_TIME_ROLE ( 'classification_date' ) ;
#165 = CC_DESIGN_SECURITY_CLASSIFICATION ( #104, ( #19 ) ) ;
#166 = AXIS2_PLACEMENT_3D ( 'NONE', #176, #281, #124 ) ;
#167 = PLANE ( 'NONE',  #4 ) ;
#168 = EDGE_CURVE ( 'NONE', #31, #285, #179, .T. ) ;
#169 = FACE_OUTER_BOUND ( 'NONE', #132, .T. ) ;
#170 = APPROVAL_STATUS ( 'not_yet_approved' ) ;
#171 = PERSON_AND_ORGANIZATION ( #241, #173 ) ;
#172 = EDGE_LOOP ( 'NONE', ( #105, #23, #290, #287 ) ) ;
#173 = ORGANIZATION ( 'UNSPECIFIED', 'UNSPECIFIED', '' ) ;
#174 = APPLICATION_PROTOCOL_DEFINITION ( 'international standard', 'config_control_design', 1994, #234 ) ;
#175 = ORIENTED_EDGE ( 'NONE', *, *, #268, .F. ) ;
#176 = CARTESIAN_POINT ( 'NONE',  ( -1.614212418857619014, 0.000000000000000000, 0.000000000000000000 ) ) ;
#177 = CC_DESIGN_PERSON_AND_ORGANIZATION_ASSIGNMENT ( #114, #39, ( #104 ) ) ;
#178 = DIRECTION ( 'NONE',  ( 0.000000000000000000, 0.000000000000000000, 1.000000000000000000 ) ) ;
#179 = CIRCLE ( 'NONE', #32, 5.000000000000001776 ) ;
#180 = DIRECTION ( 'NONE',  ( -1.000000000000000000, -0.000000000000000000, -0.000000000000000000 ) ) ;
#181 = EDGE_LOOP ( 'NONE', ( #121, #236, #315, #44 ) ) ;
#182 = EDGE_CURVE ( 'NONE', #51, #128, #130, .T. ) ;
#183 = LINE ( 'NONE', #103, #38 ) ;
#184 = EDGE_LOOP ( 'NONE', ( #27, #280, #78, #82 ) ) ;
#185 = LOCAL_TIME ( 9, 34, 19.00000000000000000, #321 ) ;
#186 = AXIS2_PLACEMENT_3D ( 'NONE', #218, #13, #294 ) ;
#187 = CIRCLE ( 'NONE', #5, 12.69999999999999929 ) ;
#188 = ADVANCED_FACE ( 'NONE', ( #89 ), #248, .T. ) ;
#189 = ORIENTED_EDGE ( 'NONE', *, *, #198, .F. ) ;
#190 = CARTESIAN_POINT ( 'NONE',  ( 1.250000000000000444, 0.000000000000000000, 0.000000000000000000 ) ) ;
#191 = AXIS2_PLACEMENT_3D ( 'NONE', #140, #322, #15 ) ;
#192 = VECTOR ( 'NONE', #106, 1000.000000000000000 ) ;
#193 = ADVANCED_FACE ( 'NONE', ( #61, #224 ), #167, .F. ) ;
#194 = FACE_BOUND ( 'NONE', #228, .T. ) ;
#195 = CALENDAR_DATE ( 2020, 24, 12 ) ;
#196 = DIRECTION ( 'NONE',  ( -1.000000000000000000, 0.000000000000000000, -0.000000000000000000 ) ) ;
#197 = APPROVAL_ROLE ( '' ) ;
#198 = EDGE_CURVE ( 'NONE', #67, #3, #199, .T. ) ;
#199 = LINE ( 'NONE', #299, #99 ) ;
#200 = APPLICATION_PROTOCOL_DEFINITION ( 'international standard', 'config_control_design', 1994, #52 ) ;
#201 = DIRECTION ( 'NONE',  ( -1.000000000000000000, -0.000000000000000000, -0.000000000000000000 ) ) ;
#202 = PERSON_AND_ORGANIZATION ( #241, #173 ) ;
#203 = VERTEX_POINT ( 'NONE', #65 ) ;
#204 = CYLINDRICAL_SURFACE ( 'NONE', #166, 5.000000000000000888 ) ;
#205 = CC_DESIGN_PERSON_AND_ORGANIZATION_ASSIGNMENT ( #303, #141, ( #20 ) ) ;
#206 = LOCAL_TIME ( 9, 34, 19.00000000000000000, #298 ) ;
#207 = EDGE_LOOP ( 'NONE', ( #54, #330 ) ) ;
#208 = DIRECTION ( 'NONE',  ( 0.000000000000000000, 0.000000000000000000, -1.000000000000000000 ) ) ;
#209 = CYLINDRICAL_SURFACE ( 'NONE', #145, 5.000000000000000888 ) ;
#210 = EDGE_LOOP ( 'NONE', ( #175, #102, #47, #95 ) ) ;
#211 = AXIS2_PLACEMENT_3D ( 'NONE', #63, #201, #274 ) ;
#212 = DIRECTION ( 'NONE',  ( 0.000000000000000000, 0.000000000000000000, 1.000000000000000000 ) ) ;
#213 = EDGE_LOOP ( 'NONE', ( #8, #70 ) ) ;
#214 = DIRECTION ( 'NONE',  ( -1.000000000000000000, -0.000000000000000000, -0.000000000000000000 ) ) ;
#215 = ORIENTED_EDGE ( 'NONE', *, *, #182, .F. ) ;
#216 = FACE_OUTER_BOUND ( 'NONE', #213, .T. ) ;
#217 = ADVANCED_FACE ( 'NONE', ( #169 ), #275, .F. ) ;
#218 = CARTESIAN_POINT ( 'NONE',  ( -1.250000000000000222, 0.000000000000000000, 0.000000000000000000 ) ) ;
#219 = VECTOR ( 'NONE', #318, 1000.000000000000000 ) ;
#220 = CIRCLE ( 'NONE', #334, 5.000000000000000000 ) ;
#221 = DIRECTION ( 'NONE',  ( -1.000000000000000000, -0.000000000000000000, -0.000000000000000000 ) ) ;
#222 = COORDINATED_UNIVERSAL_TIME_OFFSET ( 8, 0, .AHEAD. ) ;
#223 = DIRECTION ( 'NONE',  ( 0.000000000000000000, 0.000000000000000000, 1.000000000000000000 ) ) ;
#224 = FACE_BOUND ( 'NONE', #207, .T. ) ;
#225 = DIRECTION ( 'NONE',  ( 0.000000000000000000, 0.000000000000000000, 1.000000000000000000 ) ) ;
#226 = APPROVAL_DATE_TIME ( #117, #316 ) ;
#227 = APPROVAL_STATUS ( 'not_yet_approved' ) ;
#228 = EDGE_LOOP ( 'NONE', ( #261, #147 ) ) ;
#229 = CC_DESIGN_PERSON_AND_ORGANIZATION_ASSIGNMENT ( #308, #92, ( #19 ) ) ;
#230 = DIRECTION ( 'NONE',  ( -1.000000000000000000, -0.000000000000000000, -0.000000000000000000 ) ) ;
#231 = DIRECTION ( 'NONE',  ( 1.000000000000000000, 0.000000000000000000, 0.000000000000000000 ) ) ;
#232 = VERTEX_POINT ( 'NONE', #142 ) ;
#233 = DIRECTION ( 'NONE',  ( -1.000000000000000000, -0.000000000000000000, -0.000000000000000000 ) ) ;
#234 = APPLICATION_CONTEXT ( 'configuration controlled 3d designs of mechanical parts and assemblies' ) ;
#235 = DIRECTION ( 'NONE',  ( -1.000000000000000000, -0.000000000000000000, -0.000000000000000000 ) ) ;
#236 = ORIENTED_EDGE ( 'NONE', *, *, #68, .T. ) ;
#237 = DIRECTION ( 'NONE',  ( 0.000000000000000000, 0.000000000000000000, 1.000000000000000000 ) ) ;
#238 = ORIENTED_EDGE ( 'NONE', *, *, #268, .T. ) ;
#239 = EDGE_CURVE ( 'NONE', #29, #3, #306, .T. ) ;
#240 = EDGE_CURVE ( 'NONE', #1, #255, #289, .T. ) ;
#241 = PERSON ( 'UNSPECIFIED', 'UNSPECIFIED', 'UNSPECIFIED', ('UNSPECIFIED'), ('UNSPECIFIED'), ('UNSPECIFIED') ) ;
#242 = DIRECTION ( 'NONE',  ( -1.000000000000000000, 0.000000000000000000, -0.000000000000000000 ) ) ;
#243 = CARTESIAN_POINT ( 'NONE',  ( 3.000000000000000000, 0.000000000000000000, 12.69999999999999929 ) ) ;
#244 = CIRCLE ( 'NONE', #211, 12.69999999999999929 ) ;
#245 = CARTESIAN_POINT ( 'NONE',  ( -3.000000000000000000, 0.000000000000000000, 0.000000000000000000 ) ) ;
#246 = EDGE_CURVE ( 'NONE', #3, #29, #220, .T. ) ;
#247 = SECURITY_CLASSIFICATION_LEVEL ( 'unclassified' ) ;
#248 = CYLINDRICAL_SURFACE ( 'NONE', #191, 12.69999999999999929 ) ;
#249 = DATE_AND_TIME ( #144, #250 ) ;
#250 = LOCAL_TIME ( 9, 34, 19.00000000000000000, #148 ) ;
#251 = CARTESIAN_POINT ( 'NONE',  ( 0.000000000000000000, 0.000000000000000000, 0.000000000000000000 ) ) ;
#252 = ORIENTED_EDGE ( 'NONE', *, *, #317, .T. ) ;
#253 = FACE_OUTER_BOUND ( 'NONE', #210, .T. ) ;
#254 = APPROVAL_DATE_TIME ( #249, #131 ) ;
#255 = VERTEX_POINT ( 'NONE', #260 ) ;
#256 = FACE_OUTER_BOUND ( 'NONE', #158, .T. ) ;
#257 = ADVANCED_FACE ( 'NONE', ( #314 ), #127, .T. ) ;
#258 = DIRECTION ( 'NONE',  ( -1.000000000000000000, -0.000000000000000000, -0.000000000000000000 ) ) ;
#259 = AXIS2_PLACEMENT_3D ( 'NONE', #151, #258, #150 ) ;
#260 = CARTESIAN_POINT ( 'NONE',  ( 1.250000000000000444, 0.000000000000000000, 5.000000000000000000 ) ) ;
#261 = ORIENTED_EDGE ( 'NONE', *, *, #246, .F. ) ;
#262 = LINE ( 'NONE', #28, #192 ) ;
#263 = APPROVAL_PERSON_ORGANIZATION ( #88, #162, #272 ) ;
#264 = ORIENTED_EDGE ( 'NONE', *, *, #240, .F. ) ;
#265 = CIRCLE ( 'NONE', #37, 5.000000000000000000 ) ;
#266 = CC_DESIGN_APPROVAL ( #316, ( #79 ) ) ;
#267 = EDGE_CURVE ( 'NONE', #76, #232, #187, .T. ) ;
#268 = EDGE_CURVE ( 'NONE', #203, #29, #183, .T. ) ;
#269 = AXIS2_PLACEMENT_3D ( 'NONE', #26, #2, #77 ) ;
#270 = FACE_OUTER_BOUND ( 'NONE', #109, .T. ) ;
#271 = CYLINDRICAL_SURFACE ( 'NONE', #62, 5.000000000000000888 ) ;
#272 = APPROVAL_ROLE ( '' ) ;
#273 = DIRECTION ( 'NONE',  ( -0.000000000000000000, 0.000000000000000000, 1.000000000000000000 ) ) ;
#274 = DIRECTION ( 'NONE',  ( 0.000000000000000000, 0.000000000000000000, 1.000000000000000000 ) ) ;
#275 = CYLINDRICAL_SURFACE ( 'NONE', #159, 5.000000000000000888 ) ;
#276 = APPROVAL_ROLE ( '' ) ;
#277 = APPROVAL_STATUS ( 'not_yet_approved' ) ;
#278 = ORIENTED_EDGE ( 'NONE', *, *, #68, .F. ) ;
#279 = CIRCLE ( 'NONE', #259, 5.000000000000001776 ) ;
#280 = ORIENTED_EDGE ( 'NONE', *, *, #326, .T. ) ;
#281 = DIRECTION ( 'NONE',  ( -1.000000000000000000, -0.000000000000000000, -0.000000000000000000 ) ) ;
#282 = DIRECTION ( 'NONE',  ( 1.000000000000000000, 0.000000000000000000, 0.000000000000000000 ) ) ;
#283 = AXIS2_PLACEMENT_3D ( 'NONE', #100, #282, #208 ) ;
#284 = DIRECTION ( 'NONE',  ( -1.000000000000000000, -0.000000000000000000, -0.000000000000000000 ) ) ;
#285 = VERTEX_POINT ( 'NONE', #286 ) ;
#286 = CARTESIAN_POINT ( 'NONE',  ( 3.000000000000000000, 6.123233995736768255E-16, -5.000000000000001776 ) ) ;
#287 = ORIENTED_EDGE ( 'NONE', *, *, #101, .F. ) ;
#288 = CC_DESIGN_DATE_AND_TIME_ASSIGNMENT ( #66, #46, ( #79 ) ) ;
#289 = CIRCLE ( 'NONE', #156, 5.000000000000000000 ) ;
#290 = ORIENTED_EDGE ( 'NONE', *, *, #267, .F. ) ;
#291 = CIRCLE ( 'NONE', #186, 5.000000000000000888 ) ;
#292 = AXIS2_PLACEMENT_3D ( 'NONE', #245, #14, #223 ) ;
#293 = CARTESIAN_POINT ( 'NONE',  ( -1.250000000000000222, 0.000000000000000000, 5.000000000000000888 ) ) ;
#294 = DIRECTION ( 'NONE',  ( 0.000000000000000000, 0.000000000000000000, -1.000000000000000000 ) ) ;
#295 = DATE_AND_TIME ( #161, #185 ) ;
#296 = ADVANCED_FACE ( 'NONE', ( #7 ), #209, .F. ) ;
#297 = DIRECTION ( 'NONE',  ( 0.000000000000000000, 0.000000000000000000, 1.000000000000000000 ) ) ;
#298 = COORDINATED_UNIVERSAL_TIME_OFFSET ( 8, 0, .AHEAD. ) ;
#299 = CARTESIAN_POINT ( 'NONE',  ( -1.614212418857619014, 0.000000000000000000, 5.000000000000000888 ) ) ;
#300 = DIRECTION ( 'NONE',  ( 0.000000000000000000, 0.000000000000000000, -1.000000000000000000 ) ) ;
#301 = EDGE_CURVE ( 'NONE', #31, #255, #262, .T. ) ;
#302 = PRODUCT_DEFINITION_SHAPE ( 'NONE', 'NONE',  #79 ) ;
#303 = PERSON_AND_ORGANIZATION ( #241, #173 ) ;
#304 = CALENDAR_DATE ( 2020, 24, 12 ) ;
#305 = ORIENTED_EDGE ( 'NONE', *, *, #317, .F. ) ;
#306 = CIRCLE ( 'NONE', #292, 5.000000000000000000 ) ;
#307 = DIRECTION ( 'NONE',  ( 0.000000000000000000, 0.000000000000000000, 1.000000000000000000 ) ) ;
#308 = PERSON_AND_ORGANIZATION ( #241, #173 ) ;
#309 = CARTESIAN_POINT ( 'NONE',  ( -3.000000000000000000, 6.123233995736766282E-16, -5.000000000000000000 ) ) ;
#310 = CARTESIAN_POINT ( 'NONE',  ( 3.000000000000000000, 0.000000000000000000, 0.000000000000000000 ) ) ;
#311 = CARTESIAN_POINT ( 'NONE',  ( 1.250000000000000444, 0.000000000000000000, 0.000000000000000000 ) ) ;
#312 = ORIENTED_EDGE ( 'NONE', *, *, #74, .F. ) ;
#313 = APPROVAL_PERSON_ORGANIZATION ( #94, #131, #276 ) ;
#314 = FACE_OUTER_BOUND ( 'NONE', #172, .T. ) ;
#315 = ORIENTED_EDGE ( 'NONE', *, *, #240, .T. ) ;
#316 = APPROVAL ( #227, 'UNSPECIFIED' ) ;
#317 = EDGE_CURVE ( 'NONE', #67, #203, #45, .T. ) ;
#318 = DIRECTION ( 'NONE',  ( -1.000000000000000000, -0.000000000000000000, -0.000000000000000000 ) ) ;
#319 = AXIS2_PLACEMENT_3D ( 'NONE', #251, #225, #325 ) ;
#320 = LINE ( 'NONE', #10, #219 ) ;
#321 = COORDINATED_UNIVERSAL_TIME_OFFSET ( 8, 0, .AHEAD. ) ;
#322 = DIRECTION ( 'NONE',  ( -1.000000000000000000, -0.000000000000000000, -0.000000000000000000 ) ) ;
#323 = DATE_AND_TIME ( #195, #134 ) ;
#324 = DIRECTION ( 'NONE',  ( 0.000000000000000000, 0.000000000000000000, 1.000000000000000000 ) ) ;
#325 = DIRECTION ( 'NONE',  ( 1.000000000000000000, 0.000000000000000000, 0.000000000000000000 ) ) ;
#326 = EDGE_CURVE ( 'NONE', #128, #51, #244, .T. ) ;
#327 =( LENGTH_UNIT ( ) NAMED_UNIT ( * ) SI_UNIT ( .MILLI., .METRE. ) );
#328 = ADVANCED_BREP_SHAPE_REPRESENTATION ( 'QB-CTZHWP-10-795-M', ( #91, #319 ), #12 ) ;
#329 = PERSON_AND_ORGANIZATION_ROLE ( 'creator' ) ;
#330 = ORIENTED_EDGE ( 'NONE', *, *, #138, .T. ) ;
#331 = CARTESIAN_POINT ( 'NONE',  ( 3.000000000000000000, 1.555301434917138433E-15, -12.69999999999999929 ) ) ;
#332 = CALENDAR_DATE ( 2020, 24, 12 ) ;
#333 = ORIENTED_EDGE ( 'NONE', *, *, #239, .T. ) ;
#334 = AXIS2_PLACEMENT_3D ( 'NONE', #152, #284, #212 ) ;
#335 = PLANE ( 'NONE',  #283 ) ;
ENDSEC;
END-ISO-10303-21;
